ISO-10303-21;
HEADER;
FILE_DESCRIPTION (( 'STEP AP203' ),
    '1' );
FILE_NAME ('QB-CTZQWP-38.1-1550-M.STEP',
    '2020-12-24T01:51:56',
    ( '' ),
    ( '' ),
    'SwSTEP 2.0',
    'SolidWorks 2020',
    '' );
FILE_SCHEMA (( 'CONFIG_CONTROL_DESIGN' ));
ENDSEC;

DATA;
#1 = LOCAL_TIME ( 9, 51, 56.00000000000000000, #166 ) ;
#2 = PERSON ( 'UNSPECIFIED', 'UNSPECIFIED', 'UNSPECIFIED', ('UNSPECIFIED'), ('UNSPECIFIED'), ('UNSPECIFIED') ) ;
#3 = CIRCLE ( 'NONE', #67, 25.39999999999999858 ) ;
#4 = PERSON_AND_ORGANIZATION ( #2, #31 ) ;
#5 = PLANE ( 'NONE',  #91 ) ;
#6 = SECURITY_CLASSIFICATION_LEVEL ( 'unclassified' ) ;
#7 = CARTESIAN_POINT ( 'NONE',  ( -3.000000000000000000, 0.000000000000000000, 0.000000000000000000 ) ) ;
#8 = APPROVAL ( #20, 'UNSPECIFIED' ) ;
#9 = CARTESIAN_POINT ( 'NONE',  ( -1.614212418857619014, 0.000000000000000000, 25.39999999999999858 ) ) ;
#10 = DIRECTION ( 'NONE',  ( -1.000000000000000000, -0.000000000000000000, -0.000000000000000000 ) ) ;
#11 = CARTESIAN_POINT ( 'NONE',  ( -1.614212418857619014, 0.000000000000000000, 0.000000000000000000 ) ) ;
#12 = PRODUCT_DEFINITION_FORMATION_WITH_SPECIFIED_SOURCE ( 'ANY', '', #160, .NOT_KNOWN. ) ;
#13 = VECTOR ( 'NONE', #134, 1000.000000000000000 ) ;
#14 = ORIENTED_EDGE ( 'NONE', *, *, #100, .T. ) ;
#15 = CC_DESIGN_SECURITY_CLASSIFICATION ( #28, ( #12 ) ) ;
#16 = PRODUCT_RELATED_PRODUCT_CATEGORY ( 'detail', '', ( #160 ) ) ;
#17 = LOCAL_TIME ( 9, 51, 56.00000000000000000, #50 ) ;
#18 = PERSON_AND_ORGANIZATION ( #2, #31 ) ;
#19 = SHAPE_DEFINITION_REPRESENTATION ( #30, #124 ) ;
#20 = APPROVAL_STATUS ( 'not_yet_approved' ) ;
#21 = APPROVAL_PERSON_ORGANIZATION ( #147, #126, #120 ) ;
#22 = FACE_OUTER_BOUND ( 'NONE', #29, .T. ) ;
#23 = DIRECTION ( 'NONE',  ( -1.000000000000000000, -0.000000000000000000, -0.000000000000000000 ) ) ;
#24 = CARTESIAN_POINT ( 'NONE',  ( 3.000000000000000000, 0.000000000000000000, 0.000000000000000000 ) ) ;
#25 = APPROVAL_STATUS ( 'not_yet_approved' ) ;
#26 = APPLICATION_PROTOCOL_DEFINITION ( 'international standard', 'config_control_design', 1994, #80 ) ;
#27 = ADVANCED_FACE ( 'NONE', ( #54 ), #149, .F. ) ;
#28 = SECURITY_CLASSIFICATION ( '', '', #6 ) ;
#29 = EDGE_LOOP ( 'NONE', ( #14, #136, #125, #137 ) ) ;
#30 = PRODUCT_DEFINITION_SHAPE ( 'NONE', 'NONE',  #58 ) ;
#31 = ORGANIZATION ( 'UNSPECIFIED', 'UNSPECIFIED', '' ) ;
#32 = APPLICATION_CONTEXT ( 'configuration controlled 3d designs of mechanical parts and assemblies' ) ;
#33 = CC_DESIGN_PERSON_AND_ORGANIZATION_ASSIGNMENT ( #48, #116, ( #12 ) ) ;
#34 = PERSON_AND_ORGANIZATION_ROLE ( 'classification_officer' ) ;
#35 = DATE_TIME_ROLE ( 'classification_date' ) ;
#36 = APPROVAL_PERSON_ORGANIZATION ( #61, #8, #114 ) ;
#37 = DIRECTION ( 'NONE',  ( 0.000000000000000000, 0.000000000000000000, -1.000000000000000000 ) ) ;
#38 = DIRECTION ( 'NONE',  ( -1.000000000000000000, -0.000000000000000000, -0.000000000000000000 ) ) ;
#39 = DIRECTION ( 'NONE',  ( 0.000000000000000000, 0.000000000000000000, 1.000000000000000000 ) ) ;
#40 = PERSON_AND_ORGANIZATION_ROLE ( 'design_owner' ) ;
#41 = CC_DESIGN_PERSON_AND_ORGANIZATION_ASSIGNMENT ( #106, #40, ( #160 ) ) ;
#42 = LOCAL_TIME ( 9, 51, 56.00000000000000000, #70 ) ;
#43 = EDGE_CURVE ( 'NONE', #44, #94, #76, .T. ) ;
#44 = VERTEX_POINT ( 'NONE', #88 ) ;
#45 = ORIENTED_EDGE ( 'NONE', *, *, #100, .F. ) ;
#46 = EDGE_CURVE ( 'NONE', #44, #57, #95, .T. ) ;
#47 = DATE_AND_TIME ( #96, #42 ) ;
#48 = PERSON_AND_ORGANIZATION ( #2, #31 ) ;
#49 = EDGE_CURVE ( 'NONE', #161, #94, #75, .T. ) ;
#50 = COORDINATED_UNIVERSAL_TIME_OFFSET ( 8, 0, .AHEAD. ) ;
#51 = DIRECTION ( 'NONE',  ( 0.000000000000000000, 0.000000000000000000, 1.000000000000000000 ) ) ;
#52 = CARTESIAN_POINT ( 'NONE',  ( 3.000000000000000000, 0.000000000000000000, 0.000000000000000000 ) ) ;
#53 = MECHANICAL_CONTEXT ( 'NONE', #80, 'mechanical' ) ;
#54 = FACE_OUTER_BOUND ( 'NONE', #109, .T. ) ;
#55 = ORIENTED_EDGE ( 'NONE', *, *, #46, .T. ) ;
#56 = AXIS2_PLACEMENT_3D ( 'NONE', #24, #73, #130 ) ;
#57 = VERTEX_POINT ( 'NONE', #64 ) ;
#58 = PRODUCT_DEFINITION ( 'UNKNOWN', '', #12, #131 ) ;
#59 = DATE_AND_TIME ( #127, #84 ) ;
#60 = DIRECTION ( 'NONE',  ( 1.000000000000000000, 0.000000000000000000, 0.000000000000000000 ) ) ;
#61 = PERSON_AND_ORGANIZATION ( #2, #31 ) ;
#62 = CALENDAR_DATE ( 2020, 24, 12 ) ;
#63 = CC_DESIGN_DATE_AND_TIME_ASSIGNMENT ( #59, #99, ( #58 ) ) ;
#64 = CARTESIAN_POINT ( 'NONE',  ( 3.000000000000000000, 0.000000000000000000, 25.39999999999999858 ) ) ;
#65 = DIRECTION ( 'NONE',  ( 1.000000000000000000, 0.000000000000000000, 0.000000000000000000 ) ) ;
#66 = ORIENTED_EDGE ( 'NONE', *, *, #175, .T. ) ;
#67 = AXIS2_PLACEMENT_3D ( 'NONE', #7, #133, #128 ) ;
#68 = MANIFOLD_SOLID_BREP ( 'Ðý×', #72 ) ;
#69 = COORDINATED_UNIVERSAL_TIME_OFFSET ( 8, 0, .AHEAD. ) ;
#70 = COORDINATED_UNIVERSAL_TIME_OFFSET ( 8, 0, .AHEAD. ) ;
#71 = PERSON_AND_ORGANIZATION_ROLE ( 'creator' ) ;
#72 = CLOSED_SHELL ( 'NONE', ( #103, #27, #162, #148 ) ) ;
#73 = DIRECTION ( 'NONE',  ( -1.000000000000000000, -0.000000000000000000, -0.000000000000000000 ) ) ;
#74 = CARTESIAN_POINT ( 'NONE',  ( -3.000000000000001332, 19.05000000000000071, 0.000000000000000000 ) ) ;
#75 = CIRCLE ( 'NONE', #85, 25.39999999999999858 ) ;
#76 = LINE ( 'NONE', #140, #111 ) ;
#77 =( NAMED_UNIT ( * ) SI_UNIT ( $, .STERADIAN. ) SOLID_ANGLE_UNIT ( ) );
#78 = ORIENTED_EDGE ( 'NONE', *, *, #156, .T. ) ;
#79 = CC_DESIGN_APPROVAL ( #86, ( #28 ) ) ;
#80 = APPLICATION_CONTEXT ( 'configuration controlled 3d designs of mechanical parts and assemblies' ) ;
#81 = DATE_AND_TIME ( #152, #17 ) ;
#82 = APPROVAL_STATUS ( 'not_yet_approved' ) ;
#83 = DIRECTION ( 'NONE',  ( -0.000000000000000000, 0.000000000000000000, 1.000000000000000000 ) ) ;
#84 = LOCAL_TIME ( 9, 51, 56.00000000000000000, #69 ) ;
#85 = AXIS2_PLACEMENT_3D ( 'NONE', #144, #23, #143 ) ;
#86 = APPROVAL ( #82, 'UNSPECIFIED' ) ;
#87 = CYLINDRICAL_SURFACE ( 'NONE', #158, 25.39999999999999858 ) ;
#88 = CARTESIAN_POINT ( 'NONE',  ( 3.000000000000000000, 3.110602869834276865E-15, -25.39999999999999858 ) ) ;
#89 = CARTESIAN_POINT ( 'NONE',  ( -3.000000000000000000, 0.000000000000000000, 25.39999999999999858 ) ) ;
#90 = APPLICATION_PROTOCOL_DEFINITION ( 'international standard', 'config_control_design', 1994, #32 ) ;
#91 = AXIS2_PLACEMENT_3D ( 'NONE', #74, #60, #37 ) ;
#92 = ORIENTED_EDGE ( 'NONE', *, *, #46, .F. ) ;
#93 = CC_DESIGN_PERSON_AND_ORGANIZATION_ASSIGNMENT ( #4, #139, ( #58 ) ) ;
#94 = VERTEX_POINT ( 'NONE', #168 ) ;
#95 = CIRCLE ( 'NONE', #155, 25.39999999999999858 ) ;
#96 = CALENDAR_DATE ( 2020, 24, 12 ) ;
#97 = APPROVAL_DATE_TIME ( #98, #8 ) ;
#98 = DATE_AND_TIME ( #151, #1 ) ;
#99 = DATE_TIME_ROLE ( 'creation_date' ) ;
#100 = EDGE_CURVE ( 'NONE', #57, #44, #135, .T. ) ;
#101 = APPROVAL_DATE_TIME ( #142, #126 ) ;
#102 = CC_DESIGN_APPROVAL ( #8, ( #12 ) ) ;
#103 = ADVANCED_FACE ( 'NONE', ( #22 ), #154, .T. ) ;
#104 = FACE_OUTER_BOUND ( 'NONE', #108, .T. ) ;
#105 = DIRECTION ( 'NONE',  ( -1.000000000000000000, -0.000000000000000000, -0.000000000000000000 ) ) ;
#106 = PERSON_AND_ORGANIZATION ( #2, #31 ) ;
#107 = UNCERTAINTY_MEASURE_WITH_UNIT (LENGTH_MEASURE( 1.000000000000000082E-05 ), #165, 'distance_accuracy_value', 'NONE');
#108 = EDGE_LOOP ( 'NONE', ( #159, #78 ) ) ;
#109 = EDGE_LOOP ( 'NONE', ( #45, #92 ) ) ;
#110 = CC_DESIGN_APPROVAL ( #126, ( #58 ) ) ;
#111 = VECTOR ( 'NONE', #38, 1000.000000000000000 ) ;
#112 = CC_DESIGN_PERSON_AND_ORGANIZATION_ASSIGNMENT ( #163, #71, ( #12 ) ) ;
#113 = APPROVAL_DATE_TIME ( #47, #86 ) ;
#114 = APPROVAL_ROLE ( '' ) ;
#115 = DIRECTION ( 'NONE',  ( 0.000000000000000000, 0.000000000000000000, 1.000000000000000000 ) ) ;
#116 = PERSON_AND_ORGANIZATION_ROLE ( 'design_supplier' ) ;
#117 = DIRECTION ( 'NONE',  ( -1.000000000000000000, 0.000000000000000000, -0.000000000000000000 ) ) ;
#118 = APPROVAL_PERSON_ORGANIZATION ( #138, #86, #129 ) ;
#119 = CARTESIAN_POINT ( 'NONE',  ( -1.614212418857619014, 0.000000000000000000, 0.000000000000000000 ) ) ;
#120 = APPROVAL_ROLE ( '' ) ;
#121 = CARTESIAN_POINT ( 'NONE',  ( 0.000000000000000000, 0.000000000000000000, 0.000000000000000000 ) ) ;
#122 =( GEOMETRIC_REPRESENTATION_CONTEXT ( 3 ) GLOBAL_UNCERTAINTY_ASSIGNED_CONTEXT ( ( #107 ) ) GLOBAL_UNIT_ASSIGNED_CONTEXT ( ( #165, #153, #77 ) ) REPRESENTATION_CONTEXT ( 'NONE', 'WORKASPACE' ) );
#123 = ORIENTED_EDGE ( 'NONE', *, *, #156, .F. ) ;
#124 = ADVANCED_BREP_SHAPE_REPRESENTATION ( 'QB-CTZQWP-38.1-1550-M', ( #68, #170 ), #122 ) ;
#125 = ORIENTED_EDGE ( 'NONE', *, *, #49, .F. ) ;
#126 = APPROVAL ( #25, 'UNSPECIFIED' ) ;
#127 = CALENDAR_DATE ( 2020, 24, 12 ) ;
#128 = DIRECTION ( 'NONE',  ( 0.000000000000000000, 0.000000000000000000, 1.000000000000000000 ) ) ;
#129 = APPROVAL_ROLE ( '' ) ;
#130 = DIRECTION ( 'NONE',  ( 0.000000000000000000, 0.000000000000000000, 1.000000000000000000 ) ) ;
#131 = DESIGN_CONTEXT ( 'detailed design', #32, 'design' ) ;
#132 = LINE ( 'NONE', #9, #13 ) ;
#133 = DIRECTION ( 'NONE',  ( -1.000000000000000000, -0.000000000000000000, -0.000000000000000000 ) ) ;
#134 = DIRECTION ( 'NONE',  ( -1.000000000000000000, -0.000000000000000000, -0.000000000000000000 ) ) ;
#135 = CIRCLE ( 'NONE', #56, 25.39999999999999858 ) ;
#136 = ORIENTED_EDGE ( 'NONE', *, *, #43, .T. ) ;
#137 = ORIENTED_EDGE ( 'NONE', *, *, #175, .F. ) ;
#138 = PERSON_AND_ORGANIZATION ( #2, #31 ) ;
#139 = PERSON_AND_ORGANIZATION_ROLE ( 'creator' ) ;
#140 = CARTESIAN_POINT ( 'NONE',  ( -1.614212418857619014, 3.110602869834276865E-15, -25.39999999999999858 ) ) ;
#141 = LOCAL_TIME ( 9, 51, 56.00000000000000000, #169 ) ;
#142 = DATE_AND_TIME ( #62, #141 ) ;
#143 = DIRECTION ( 'NONE',  ( 0.000000000000000000, 0.000000000000000000, 1.000000000000000000 ) ) ;
#144 = CARTESIAN_POINT ( 'NONE',  ( -3.000000000000000000, 0.000000000000000000, 0.000000000000000000 ) ) ;
#145 = CC_DESIGN_DATE_AND_TIME_ASSIGNMENT ( #81, #35, ( #28 ) ) ;
#146 = DIRECTION ( 'NONE',  ( -1.000000000000000000, -0.000000000000000000, -0.000000000000000000 ) ) ;
#147 = PERSON_AND_ORGANIZATION ( #2, #31 ) ;
#148 = ADVANCED_FACE ( 'NONE', ( #104 ), #5, .F. ) ;
#149 = PLANE ( 'NONE',  #174 ) ;
#150 = EDGE_LOOP ( 'NONE', ( #172, #55, #66, #123 ) ) ;
#151 = CALENDAR_DATE ( 2020, 24, 12 ) ;
#152 = CALENDAR_DATE ( 2020, 24, 12 ) ;
#153 =( NAMED_UNIT ( * ) PLANE_ANGLE_UNIT ( ) SI_UNIT ( $, .RADIAN. ) );
#154 = CYLINDRICAL_SURFACE ( 'NONE', #164, 25.39999999999999858 ) ;
#155 = AXIS2_PLACEMENT_3D ( 'NONE', #52, #105, #39 ) ;
#156 = EDGE_CURVE ( 'NONE', #94, #161, #3, .T. ) ;
#157 = CARTESIAN_POINT ( 'NONE',  ( 3.000000000000001332, 19.05000000000000071, 0.000000000000000000 ) ) ;
#158 = AXIS2_PLACEMENT_3D ( 'NONE', #11, #146, #115 ) ;
#159 = ORIENTED_EDGE ( 'NONE', *, *, #49, .T. ) ;
#160 = PRODUCT ( 'QB-CTZQWP-38.1-1550-M', 'QB-CTZQWP-38.1-1550-M', '', ( #53 ) ) ;
#161 = VERTEX_POINT ( 'NONE', #89 ) ;
#162 = ADVANCED_FACE ( 'NONE', ( #167 ), #87, .T. ) ;
#163 = PERSON_AND_ORGANIZATION ( #2, #31 ) ;
#164 = AXIS2_PLACEMENT_3D ( 'NONE', #119, #10, #51 ) ;
#165 =( LENGTH_UNIT ( ) NAMED_UNIT ( * ) SI_UNIT ( .MILLI., .METRE. ) );
#166 = COORDINATED_UNIVERSAL_TIME_OFFSET ( 8, 0, .AHEAD. ) ;
#167 = FACE_OUTER_BOUND ( 'NONE', #150, .T. ) ;
#168 = CARTESIAN_POINT ( 'NONE',  ( -3.000000000000000000, 3.110602869834276865E-15, -25.39999999999999858 ) ) ;
#169 = COORDINATED_UNIVERSAL_TIME_OFFSET ( 8, 0, .AHEAD. ) ;
#170 = AXIS2_PLACEMENT_3D ( 'NONE', #121, #171, #65 ) ;
#171 = DIRECTION ( 'NONE',  ( 0.000000000000000000, 0.000000000000000000, 1.000000000000000000 ) ) ;
#172 = ORIENTED_EDGE ( 'NONE', *, *, #43, .F. ) ;
#173 = CC_DESIGN_PERSON_AND_ORGANIZATION_ASSIGNMENT ( #18, #34, ( #28 ) ) ;
#174 = AXIS2_PLACEMENT_3D ( 'NONE', #157, #117, #83 ) ;
#175 = EDGE_CURVE ( 'NONE', #57, #161, #132, .T. ) ;
ENDSEC;
END-ISO-10303-21;
